ISO-10303-21;
HEADER;
/* Generated by software containing ST-Developer
 * from STEP Tools, Inc. (www.steptools.com) 
 */
/* OPTION: using custom schema-name function */

FILE_DESCRIPTION(
/* description */ (''),
/* implementation_level */ '2;1');

FILE_NAME(
/* name */ 'Mutter_M12x1_WFSF.stp',
/* time_stamp */ '2016-09-21T15:41:14+02:00',
/* author */ (''),
/* organization */ (''),
/* preprocessor_version */ 'ST-DEVELOPER v16',
/* originating_system */ 'SIEMENS PLM Software NX 10.0',
/* authorisation */ '');

FILE_SCHEMA (('AUTOMOTIVE_DESIGN { 1 0 10303 214 3 1 1 1 }'));
ENDSEC;

DATA;
#10=SHAPE_REPRESENTATION_RELATIONSHIP('None',
'relationship between Mutter_M12x1_WFSF_stp-None and Mutter_M12x1_WFSF
_stp-None',#22,#11);
#11=ADVANCED_BREP_SHAPE_REPRESENTATION('Mutter_M12x1_WFSF_stp-None',(#32),
#549);
#12=SHAPE_DEFINITION_REPRESENTATION(#13,#22);
#13=PRODUCT_DEFINITION_SHAPE('','',#14);
#14=PRODUCT_DEFINITION(' ','',#16,#15);
#15=PRODUCT_DEFINITION_CONTEXT('part definition',#21,'design');
#16=PRODUCT_DEFINITION_FORMATION_WITH_SPECIFIED_SOURCE(' ',' ',#18,
 .NOT_KNOWN.);
#17=PRODUCT_RELATED_PRODUCT_CATEGORY('part','',(#18));
#18=PRODUCT('5016147__Mutter_part_91011','5016147__Mutter_part_91011',
' ',(#19));
#19=PRODUCT_CONTEXT(' ',#21,'mechanical');
#20=APPLICATION_PROTOCOL_DEFINITION('international standard',
'automotive_design',2010,#21);
#21=APPLICATION_CONTEXT(
'core data for automotive mechanical design processes');
#22=SHAPE_REPRESENTATION('Mutter_M12x1_WFSF_stp-None',(#312),#549);
#23=PRESENTATION_LAYER_ASSIGNMENT('1','Layer 1',(#32));
#24=STYLED_ITEM('',(#25),#32);
#25=PRESENTATION_STYLE_ASSIGNMENT((#26));
#26=SURFACE_STYLE_USAGE(.BOTH.,#27);
#27=SURFACE_SIDE_STYLE('',(#28));
#28=SURFACE_STYLE_FILL_AREA(#29);
#29=FILL_AREA_STYLE('',(#30));
#30=FILL_AREA_STYLE_COLOUR('',#31);
#31=COLOUR_RGB('Medium Gray',0.490196078431373,0.490196078431373,0.490196078431373);
#32=MANIFOLD_SOLID_BREP('',#33);
#33=CLOSED_SHELL('',(#66,#67,#68,#69,#70,#71,#72,#73,#74,#75,#76,#77,#78,
#79,#80,#81,#82));
#34=CONICAL_SURFACE('',#344,6.67575677416361,70.0000000000001);
#35=CONICAL_SURFACE('',#345,6.67575677416361,70.);
#36=FACE_BOUND('',#114,.T.);
#37=FACE_BOUND('',#115,.T.);
#38=FACE_BOUND('',#116,.T.);
#39=FACE_BOUND('',#117,.T.);
#40=FACE_BOUND('',#118,.T.);
#41=FACE_BOUND('',#119,.T.);
#42=FACE_BOUND('',#120,.T.);
#43=FACE_BOUND('',#121,.T.);
#44=FACE_BOUND('',#122,.T.);
#45=FACE_BOUND('',#123,.T.);
#46=PLANE('',#316);
#47=PLANE('',#320);
#48=PLANE('',#324);
#49=PLANE('',#328);
#50=PLANE('',#332);
#51=PLANE('',#336);
#52=PLANE('',#339);
#53=PLANE('',#343);
#54=B_SPLINE_CURVE_WITH_KNOTS('',3,(#439,#440,#441,#442),.UNSPECIFIED.,
 .F.,.F.,(4,4),(0.,1.),.UNSPECIFIED.);
#55=B_SPLINE_CURVE_WITH_KNOTS('',3,(#443,#444,#445,#446),.UNSPECIFIED.,
 .F.,.F.,(4,4),(0.,1.),.UNSPECIFIED.);
#56=B_SPLINE_CURVE_WITH_KNOTS('',3,(#457,#458,#459,#460),.UNSPECIFIED.,
 .F.,.F.,(4,4),(0.,1.),.UNSPECIFIED.);
#57=B_SPLINE_CURVE_WITH_KNOTS('',3,(#461,#462,#463,#464),.UNSPECIFIED.,
 .F.,.F.,(4,4),(0.,1.),.UNSPECIFIED.);
#58=B_SPLINE_CURVE_WITH_KNOTS('',3,(#475,#476,#477,#478),.UNSPECIFIED.,
 .F.,.F.,(4,4),(0.,1.),.UNSPECIFIED.);
#59=B_SPLINE_CURVE_WITH_KNOTS('',3,(#479,#480,#481,#482),.UNSPECIFIED.,
 .F.,.F.,(4,4),(0.,1.),.UNSPECIFIED.);
#60=B_SPLINE_CURVE_WITH_KNOTS('',3,(#493,#494,#495,#496),.UNSPECIFIED.,
 .F.,.F.,(4,4),(0.,1.),.UNSPECIFIED.);
#61=B_SPLINE_CURVE_WITH_KNOTS('',3,(#497,#498,#499,#500),.UNSPECIFIED.,
 .F.,.F.,(4,4),(0.,1.),.UNSPECIFIED.);
#62=B_SPLINE_CURVE_WITH_KNOTS('',3,(#511,#512,#513,#514),.UNSPECIFIED.,
 .F.,.F.,(4,4),(0.,1.),.UNSPECIFIED.);
#63=B_SPLINE_CURVE_WITH_KNOTS('',3,(#515,#516,#517,#518),.UNSPECIFIED.,
 .F.,.F.,(4,4),(0.,1.),.UNSPECIFIED.);
#64=B_SPLINE_CURVE_WITH_KNOTS('',3,(#526,#527,#528,#529),.UNSPECIFIED.,
 .F.,.F.,(4,4),(0.,1.),.UNSPECIFIED.);
#65=B_SPLINE_CURVE_WITH_KNOTS('',3,(#530,#531,#532,#533),.UNSPECIFIED.,
 .F.,.F.,(4,4),(0.,1.),.UNSPECIFIED.);
#66=ADVANCED_FACE('',(#90),#83,.T.);
#67=ADVANCED_FACE('',(#91),#46,.F.);
#68=ADVANCED_FACE('',(#92),#84,.T.);
#69=ADVANCED_FACE('',(#93),#47,.F.);
#70=ADVANCED_FACE('',(#94),#85,.T.);
#71=ADVANCED_FACE('',(#95),#48,.F.);
#72=ADVANCED_FACE('',(#96),#86,.T.);
#73=ADVANCED_FACE('',(#97),#49,.F.);
#74=ADVANCED_FACE('',(#98),#87,.T.);
#75=ADVANCED_FACE('',(#99),#50,.F.);
#76=ADVANCED_FACE('',(#100),#88,.T.);
#77=ADVANCED_FACE('',(#101),#51,.F.);
#78=ADVANCED_FACE('',(#36,#37),#52,.F.);
#79=ADVANCED_FACE('',(#38,#39),#89,.F.);
#80=ADVANCED_FACE('',(#40,#41),#53,.T.);
#81=ADVANCED_FACE('',(#42,#43),#34,.T.);
#82=ADVANCED_FACE('',(#44,#45),#35,.T.);
#83=CYLINDRICAL_SURFACE('',#315,7.5);
#84=CYLINDRICAL_SURFACE('',#319,7.5);
#85=CYLINDRICAL_SURFACE('',#323,7.5);
#86=CYLINDRICAL_SURFACE('',#327,7.5);
#87=CYLINDRICAL_SURFACE('',#331,7.5);
#88=CYLINDRICAL_SURFACE('',#335,7.5);
#89=CYLINDRICAL_SURFACE('',#341,5.575);
#90=FACE_OUTER_BOUND('',#102,.T.);
#91=FACE_OUTER_BOUND('',#103,.T.);
#92=FACE_OUTER_BOUND('',#104,.T.);
#93=FACE_OUTER_BOUND('',#105,.T.);
#94=FACE_OUTER_BOUND('',#106,.T.);
#95=FACE_OUTER_BOUND('',#107,.T.);
#96=FACE_OUTER_BOUND('',#108,.T.);
#97=FACE_OUTER_BOUND('',#109,.T.);
#98=FACE_OUTER_BOUND('',#110,.T.);
#99=FACE_OUTER_BOUND('',#111,.T.);
#100=FACE_OUTER_BOUND('',#112,.T.);
#101=FACE_OUTER_BOUND('',#113,.T.);
#102=EDGE_LOOP('',(#140,#141,#142,#143));
#103=EDGE_LOOP('',(#144,#145,#146,#147));
#104=EDGE_LOOP('',(#148,#149,#150,#151));
#105=EDGE_LOOP('',(#152,#153,#154,#155));
#106=EDGE_LOOP('',(#156,#157,#158,#159));
#107=EDGE_LOOP('',(#160,#161,#162,#163));
#108=EDGE_LOOP('',(#164,#165,#166,#167));
#109=EDGE_LOOP('',(#168,#169,#170,#171));
#110=EDGE_LOOP('',(#172,#173,#174,#175));
#111=EDGE_LOOP('',(#176,#177,#178,#179));
#112=EDGE_LOOP('',(#180,#181,#182,#183));
#113=EDGE_LOOP('',(#184,#185,#186,#187));
#114=EDGE_LOOP('',(#188));
#115=EDGE_LOOP('',(#189));
#116=EDGE_LOOP('',(#190));
#117=EDGE_LOOP('',(#191));
#118=EDGE_LOOP('',(#192));
#119=EDGE_LOOP('',(#193));
#120=EDGE_LOOP('',(#194));
#121=EDGE_LOOP('',(#195,#196,#197,#198,#199,#200,#201,#202,#203,#204,#205,
#206));
#122=EDGE_LOOP('',(#207));
#123=EDGE_LOOP('',(#208,#209,#210,#211,#212,#213,#214,#215,#216,#217,#218,
#219));
#124=CIRCLE('',#313,7.5);
#125=CIRCLE('',#314,7.5);
#126=CIRCLE('',#317,7.5);
#127=CIRCLE('',#318,7.5);
#128=CIRCLE('',#321,7.5);
#129=CIRCLE('',#322,7.5);
#130=CIRCLE('',#325,7.5);
#131=CIRCLE('',#326,7.5);
#132=CIRCLE('',#329,7.5);
#133=CIRCLE('',#330,7.5);
#134=CIRCLE('',#333,7.5);
#135=CIRCLE('',#334,7.5);
#136=CIRCLE('',#337,5.575);
#137=CIRCLE('',#338,6.67575677416361);
#138=CIRCLE('',#340,5.575);
#139=CIRCLE('',#342,6.67575677416361);
#140=ORIENTED_EDGE('',*,*,#248,.F.);
#141=ORIENTED_EDGE('',*,*,#249,.T.);
#142=ORIENTED_EDGE('',*,*,#250,.T.);
#143=ORIENTED_EDGE('',*,*,#251,.F.);
#144=ORIENTED_EDGE('',*,*,#252,.F.);
#145=ORIENTED_EDGE('',*,*,#253,.T.);
#146=ORIENTED_EDGE('',*,*,#248,.T.);
#147=ORIENTED_EDGE('',*,*,#254,.F.);
#148=ORIENTED_EDGE('',*,*,#255,.F.);
#149=ORIENTED_EDGE('',*,*,#256,.T.);
#150=ORIENTED_EDGE('',*,*,#252,.T.);
#151=ORIENTED_EDGE('',*,*,#257,.F.);
#152=ORIENTED_EDGE('',*,*,#258,.F.);
#153=ORIENTED_EDGE('',*,*,#259,.T.);
#154=ORIENTED_EDGE('',*,*,#255,.T.);
#155=ORIENTED_EDGE('',*,*,#260,.F.);
#156=ORIENTED_EDGE('',*,*,#261,.F.);
#157=ORIENTED_EDGE('',*,*,#262,.T.);
#158=ORIENTED_EDGE('',*,*,#258,.T.);
#159=ORIENTED_EDGE('',*,*,#263,.F.);
#160=ORIENTED_EDGE('',*,*,#264,.F.);
#161=ORIENTED_EDGE('',*,*,#265,.T.);
#162=ORIENTED_EDGE('',*,*,#261,.T.);
#163=ORIENTED_EDGE('',*,*,#266,.F.);
#164=ORIENTED_EDGE('',*,*,#267,.F.);
#165=ORIENTED_EDGE('',*,*,#268,.T.);
#166=ORIENTED_EDGE('',*,*,#264,.T.);
#167=ORIENTED_EDGE('',*,*,#269,.F.);
#168=ORIENTED_EDGE('',*,*,#270,.F.);
#169=ORIENTED_EDGE('',*,*,#271,.T.);
#170=ORIENTED_EDGE('',*,*,#267,.T.);
#171=ORIENTED_EDGE('',*,*,#272,.F.);
#172=ORIENTED_EDGE('',*,*,#273,.F.);
#173=ORIENTED_EDGE('',*,*,#274,.T.);
#174=ORIENTED_EDGE('',*,*,#270,.T.);
#175=ORIENTED_EDGE('',*,*,#275,.F.);
#176=ORIENTED_EDGE('',*,*,#276,.F.);
#177=ORIENTED_EDGE('',*,*,#277,.T.);
#178=ORIENTED_EDGE('',*,*,#273,.T.);
#179=ORIENTED_EDGE('',*,*,#278,.F.);
#180=ORIENTED_EDGE('',*,*,#279,.F.);
#181=ORIENTED_EDGE('',*,*,#280,.T.);
#182=ORIENTED_EDGE('',*,*,#276,.T.);
#183=ORIENTED_EDGE('',*,*,#281,.F.);
#184=ORIENTED_EDGE('',*,*,#250,.F.);
#185=ORIENTED_EDGE('',*,*,#282,.T.);
#186=ORIENTED_EDGE('',*,*,#279,.T.);
#187=ORIENTED_EDGE('',*,*,#283,.F.);
#188=ORIENTED_EDGE('',*,*,#284,.T.);
#189=ORIENTED_EDGE('',*,*,#285,.T.);
#190=ORIENTED_EDGE('',*,*,#286,.T.);
#191=ORIENTED_EDGE('',*,*,#284,.F.);
#192=ORIENTED_EDGE('',*,*,#287,.F.);
#193=ORIENTED_EDGE('',*,*,#286,.F.);
#194=ORIENTED_EDGE('',*,*,#285,.F.);
#195=ORIENTED_EDGE('',*,*,#254,.T.);
#196=ORIENTED_EDGE('',*,*,#251,.T.);
#197=ORIENTED_EDGE('',*,*,#283,.T.);
#198=ORIENTED_EDGE('',*,*,#281,.T.);
#199=ORIENTED_EDGE('',*,*,#278,.T.);
#200=ORIENTED_EDGE('',*,*,#275,.T.);
#201=ORIENTED_EDGE('',*,*,#272,.T.);
#202=ORIENTED_EDGE('',*,*,#269,.T.);
#203=ORIENTED_EDGE('',*,*,#266,.T.);
#204=ORIENTED_EDGE('',*,*,#263,.T.);
#205=ORIENTED_EDGE('',*,*,#260,.T.);
#206=ORIENTED_EDGE('',*,*,#257,.T.);
#207=ORIENTED_EDGE('',*,*,#287,.T.);
#208=ORIENTED_EDGE('',*,*,#256,.F.);
#209=ORIENTED_EDGE('',*,*,#259,.F.);
#210=ORIENTED_EDGE('',*,*,#262,.F.);
#211=ORIENTED_EDGE('',*,*,#265,.F.);
#212=ORIENTED_EDGE('',*,*,#268,.F.);
#213=ORIENTED_EDGE('',*,*,#271,.F.);
#214=ORIENTED_EDGE('',*,*,#274,.F.);
#215=ORIENTED_EDGE('',*,*,#277,.F.);
#216=ORIENTED_EDGE('',*,*,#280,.F.);
#217=ORIENTED_EDGE('',*,*,#282,.F.);
#218=ORIENTED_EDGE('',*,*,#249,.F.);
#219=ORIENTED_EDGE('',*,*,#253,.F.);
#220=VERTEX_POINT('',#428);
#221=VERTEX_POINT('',#429);
#222=VERTEX_POINT('',#431);
#223=VERTEX_POINT('',#433);
#224=VERTEX_POINT('',#437);
#225=VERTEX_POINT('',#438);
#226=VERTEX_POINT('',#449);
#227=VERTEX_POINT('',#450);
#228=VERTEX_POINT('',#455);
#229=VERTEX_POINT('',#456);
#230=VERTEX_POINT('',#467);
#231=VERTEX_POINT('',#468);
#232=VERTEX_POINT('',#473);
#233=VERTEX_POINT('',#474);
#234=VERTEX_POINT('',#485);
#235=VERTEX_POINT('',#486);
#236=VERTEX_POINT('',#491);
#237=VERTEX_POINT('',#492);
#238=VERTEX_POINT('',#503);
#239=VERTEX_POINT('',#504);
#240=VERTEX_POINT('',#509);
#241=VERTEX_POINT('',#510);
#242=VERTEX_POINT('',#521);
#243=VERTEX_POINT('',#522);
#244=VERTEX_POINT('',#536);
#245=VERTEX_POINT('',#538);
#246=VERTEX_POINT('',#541);
#247=VERTEX_POINT('',#544);
#248=EDGE_CURVE('',#220,#221,#288,.T.);
#249=EDGE_CURVE('',#220,#222,#124,.T.);
#250=EDGE_CURVE('',#222,#223,#289,.T.);
#251=EDGE_CURVE('',#221,#223,#125,.T.);
#252=EDGE_CURVE('',#224,#225,#290,.T.);
#253=EDGE_CURVE('',#224,#220,#54,.T.);
#254=EDGE_CURVE('',#225,#221,#55,.T.);
#255=EDGE_CURVE('',#226,#227,#291,.T.);
#256=EDGE_CURVE('',#226,#224,#126,.T.);
#257=EDGE_CURVE('',#227,#225,#127,.T.);
#258=EDGE_CURVE('',#228,#229,#292,.T.);
#259=EDGE_CURVE('',#228,#226,#56,.T.);
#260=EDGE_CURVE('',#229,#227,#57,.T.);
#261=EDGE_CURVE('',#230,#231,#293,.T.);
#262=EDGE_CURVE('',#230,#228,#128,.T.);
#263=EDGE_CURVE('',#231,#229,#129,.T.);
#264=EDGE_CURVE('',#232,#233,#294,.T.);
#265=EDGE_CURVE('',#232,#230,#58,.T.);
#266=EDGE_CURVE('',#233,#231,#59,.T.);
#267=EDGE_CURVE('',#234,#235,#295,.T.);
#268=EDGE_CURVE('',#234,#232,#130,.T.);
#269=EDGE_CURVE('',#235,#233,#131,.T.);
#270=EDGE_CURVE('',#236,#237,#296,.T.);
#271=EDGE_CURVE('',#236,#234,#60,.T.);
#272=EDGE_CURVE('',#237,#235,#61,.T.);
#273=EDGE_CURVE('',#238,#239,#297,.T.);
#274=EDGE_CURVE('',#238,#236,#132,.T.);
#275=EDGE_CURVE('',#239,#237,#133,.T.);
#276=EDGE_CURVE('',#240,#241,#298,.T.);
#277=EDGE_CURVE('',#240,#238,#62,.T.);
#278=EDGE_CURVE('',#241,#239,#63,.T.);
#279=EDGE_CURVE('',#242,#243,#299,.T.);
#280=EDGE_CURVE('',#242,#240,#134,.T.);
#281=EDGE_CURVE('',#243,#241,#135,.T.);
#282=EDGE_CURVE('',#222,#242,#64,.T.);
#283=EDGE_CURVE('',#223,#243,#65,.T.);
#284=EDGE_CURVE('',#244,#244,#136,.T.);
#285=EDGE_CURVE('',#245,#245,#137,.T.);
#286=EDGE_CURVE('',#246,#246,#138,.T.);
#287=EDGE_CURVE('',#247,#247,#139,.T.);
#288=LINE('',#427,#300);
#289=LINE('',#432,#301);
#290=LINE('',#436,#302);
#291=LINE('',#448,#303);
#292=LINE('',#454,#304);
#293=LINE('',#466,#305);
#294=LINE('',#472,#306);
#295=LINE('',#484,#307);
#296=LINE('',#490,#308);
#297=LINE('',#502,#309);
#298=LINE('',#508,#310);
#299=LINE('',#520,#311);
#300=VECTOR('',#348,1.);
#301=VECTOR('',#351,1.);
#302=VECTOR('',#356,1.);
#303=VECTOR('',#359,1.);
#304=VECTOR('',#366,1.);
#305=VECTOR('',#369,1.);
#306=VECTOR('',#376,1.);
#307=VECTOR('',#379,1.);
#308=VECTOR('',#386,1.);
#309=VECTOR('',#389,1.);
#310=VECTOR('',#396,1.);
#311=VECTOR('',#399,1.);
#312=AXIS2_PLACEMENT_3D('',#426,#346,#347);
#313=AXIS2_PLACEMENT_3D('',#430,#349,#350);
#314=AXIS2_PLACEMENT_3D('',#434,#352,#353);
#315=AXIS2_PLACEMENT_3D('',#435,#354,#355);
#316=AXIS2_PLACEMENT_3D('',#447,#357,#358);
#317=AXIS2_PLACEMENT_3D('',#451,#360,#361);
#318=AXIS2_PLACEMENT_3D('',#452,#362,#363);
#319=AXIS2_PLACEMENT_3D('',#453,#364,#365);
#320=AXIS2_PLACEMENT_3D('',#465,#367,#368);
#321=AXIS2_PLACEMENT_3D('',#469,#370,#371);
#322=AXIS2_PLACEMENT_3D('',#470,#372,#373);
#323=AXIS2_PLACEMENT_3D('',#471,#374,#375);
#324=AXIS2_PLACEMENT_3D('',#483,#377,#378);
#325=AXIS2_PLACEMENT_3D('',#487,#380,#381);
#326=AXIS2_PLACEMENT_3D('',#488,#382,#383);
#327=AXIS2_PLACEMENT_3D('',#489,#384,#385);
#328=AXIS2_PLACEMENT_3D('',#501,#387,#388);
#329=AXIS2_PLACEMENT_3D('',#505,#390,#391);
#330=AXIS2_PLACEMENT_3D('',#506,#392,#393);
#331=AXIS2_PLACEMENT_3D('',#507,#394,#395);
#332=AXIS2_PLACEMENT_3D('',#519,#397,#398);
#333=AXIS2_PLACEMENT_3D('',#523,#400,#401);
#334=AXIS2_PLACEMENT_3D('',#524,#402,#403);
#335=AXIS2_PLACEMENT_3D('',#525,#404,#405);
#336=AXIS2_PLACEMENT_3D('',#534,#406,#407);
#337=AXIS2_PLACEMENT_3D('',#535,#408,#409);
#338=AXIS2_PLACEMENT_3D('',#537,#410,#411);
#339=AXIS2_PLACEMENT_3D('',#539,#412,#413);
#340=AXIS2_PLACEMENT_3D('',#540,#414,#415);
#341=AXIS2_PLACEMENT_3D('',#542,#416,#417);
#342=AXIS2_PLACEMENT_3D('',#543,#418,#419);
#343=AXIS2_PLACEMENT_3D('',#545,#420,#421);
#344=AXIS2_PLACEMENT_3D('',#546,#422,#423);
#345=AXIS2_PLACEMENT_3D('',#547,#424,#425);
#346=DIRECTION('',(0.,0.,1.));
#347=DIRECTION('',(1.,0.,0.));
#348=DIRECTION('',(0.,0.,-1.));
#349=DIRECTION('',(0.,0.,-1.));
#350=DIRECTION('',(-1.,0.,0.));
#351=DIRECTION('',(0.,0.,-1.));
#352=DIRECTION('',(0.,0.,-1.));
#353=DIRECTION('',(-1.,0.,0.));
#354=DIRECTION('',(0.,0.,-1.));
#355=DIRECTION('',(-1.,0.,0.));
#356=DIRECTION('',(0.,0.,-1.));
#357=DIRECTION('',(0.,-1.,0.));
#358=DIRECTION('',(0.,0.,-1.));
#359=DIRECTION('',(0.,0.,-1.));
#360=DIRECTION('',(0.,0.,-1.));
#361=DIRECTION('',(-1.,0.,0.));
#362=DIRECTION('',(0.,0.,-1.));
#363=DIRECTION('',(-1.,0.,0.));
#364=DIRECTION('',(0.,0.,-1.));
#365=DIRECTION('',(-1.,0.,0.));
#366=DIRECTION('',(0.,0.,-1.));
#367=DIRECTION('',(0.866025358213937,-0.500000078930416,0.));
#368=DIRECTION('',(0.500000078930416,0.866025358213937,0.));
#369=DIRECTION('',(0.,0.,-1.));
#370=DIRECTION('',(0.,0.,-1.));
#371=DIRECTION('',(-1.,0.,0.));
#372=DIRECTION('',(0.,0.,-1.));
#373=DIRECTION('',(-1.,0.,0.));
#374=DIRECTION('',(0.,0.,-1.));
#375=DIRECTION('',(-1.,0.,0.));
#376=DIRECTION('',(0.,0.,-1.));
#377=DIRECTION('',(0.866025403784439,0.499999999999999,0.));
#378=DIRECTION('',(-0.499999999999999,0.866025403784439,0.));
#379=DIRECTION('',(0.,0.,-1.));
#380=DIRECTION('',(0.,0.,-1.));
#381=DIRECTION('',(-1.,0.,0.));
#382=DIRECTION('',(0.,0.,-1.));
#383=DIRECTION('',(-1.,0.,0.));
#384=DIRECTION('',(0.,0.,-1.));
#385=DIRECTION('',(-1.,0.,0.));
#386=DIRECTION('',(0.,0.,-1.));
#387=DIRECTION('',(0.,1.,0.));
#388=DIRECTION('',(0.,0.,1.));
#389=DIRECTION('',(0.,0.,-1.));
#390=DIRECTION('',(0.,0.,-1.));
#391=DIRECTION('',(-1.,0.,0.));
#392=DIRECTION('',(0.,0.,-1.));
#393=DIRECTION('',(-1.,0.,0.));
#394=DIRECTION('',(0.,0.,-1.));
#395=DIRECTION('',(-1.,0.,0.));
#396=DIRECTION('',(0.,0.,-1.));
#397=DIRECTION('',(-0.866025403784439,0.499999999999999,0.));
#398=DIRECTION('',(-0.499999999999999,-0.866025403784439,0.));
#399=DIRECTION('',(0.,0.,-1.));
#400=DIRECTION('',(0.,0.,-1.));
#401=DIRECTION('',(-1.,0.,0.));
#402=DIRECTION('',(0.,0.,-1.));
#403=DIRECTION('',(-1.,0.,0.));
#404=DIRECTION('',(0.,0.,-1.));
#405=DIRECTION('',(-1.,0.,0.));
#406=DIRECTION('',(-0.866025403784439,-0.499999999999999,0.));
#407=DIRECTION('',(0.499999999999999,-0.866025403784439,0.));
#408=DIRECTION('',(0.,0.,1.));
#409=DIRECTION('',(1.,0.,0.));
#410=DIRECTION('',(0.,0.,-1.));
#411=DIRECTION('',(-1.,0.,0.));
#412=DIRECTION('',(0.,0.,1.));
#413=DIRECTION('',(1.,0.,0.));
#414=DIRECTION('',(0.,0.,1.));
#415=DIRECTION('',(1.,0.,0.));
#416=DIRECTION('',(0.,0.,-1.));
#417=DIRECTION('',(-1.,0.,0.));
#418=DIRECTION('',(0.,0.,-1.));
#419=DIRECTION('',(-1.,0.,0.));
#420=DIRECTION('',(0.,0.,1.));
#421=DIRECTION('',(1.,0.,0.));
#422=DIRECTION('',(0.,0.,1.));
#423=DIRECTION('',(1.,0.,0.));
#424=DIRECTION('',(0.,0.,-1.));
#425=DIRECTION('',(-1.,0.,9.4478594597567E-19));
#426=CARTESIAN_POINT('',(0.,0.,0.));
#427=CARTESIAN_POINT('',(2.69258240356737,6.99999999999996,3.));
#428=CARTESIAN_POINT('',(2.69258240356731,6.99999999999998,2.7));
#429=CARTESIAN_POINT('',(2.69258240356731,6.99999999999998,0.300000000000001));
#430=CARTESIAN_POINT('',(0.,0.,2.7));
#431=CARTESIAN_POINT('',(4.71588662470739,5.83184476327225,2.7));
#432=CARTESIAN_POINT('',(4.71588662470734,5.83184476327229,3.));
#433=CARTESIAN_POINT('',(4.71588662470739,5.83184476327225,0.3));
#434=CARTESIAN_POINT('',(0.,0.,0.3));
#435=CARTESIAN_POINT('',(0.,0.,3.));
#436=CARTESIAN_POINT('',(-2.69258240356725,7.,3.));
#437=CARTESIAN_POINT('',(-2.69258240356725,7.,2.7));
#438=CARTESIAN_POINT('',(-2.69258240356725,7.,0.3));
#439=CARTESIAN_POINT('',(-2.69258240356725,7.,2.7));
#440=CARTESIAN_POINT('',(-0.89752746785573,7.,2.934558595416));
#441=CARTESIAN_POINT('',(0.897527467855788,7.,2.934558595416));
#442=CARTESIAN_POINT('',(2.69258240356731,7.,2.69999999999999));
#443=CARTESIAN_POINT('',(-2.69258240356725,7.,0.299999999999999));
#444=CARTESIAN_POINT('',(-0.89752746785573,7.,0.0654414045840011));
#445=CARTESIAN_POINT('',(0.897527467855788,7.,0.0654414045840042));
#446=CARTESIAN_POINT('',(2.69258240356731,7.,0.300000000000007));
#447=CARTESIAN_POINT('',(2.69258240356725,7.,3.));
#448=CARTESIAN_POINT('',(-4.71588609318783,5.83184519308234,3.));
#449=CARTESIAN_POINT('',(-4.71588609318752,5.83184519308259,2.7));
#450=CARTESIAN_POINT('',(-4.71588609318752,5.83184519308259,0.299999999999999));
#451=CARTESIAN_POINT('',(0.,0.,2.7));
#452=CARTESIAN_POINT('',(0.,0.,0.3));
#453=CARTESIAN_POINT('',(0.,0.,3.));
#454=CARTESIAN_POINT('',(-7.40846892180785,1.16815591194296,3.));
#455=CARTESIAN_POINT('',(-7.40846892180785,1.16815591194296,2.7));
#456=CARTESIAN_POINT('',(-7.40846892180785,1.16815591194296,0.299999999999999));
#457=CARTESIAN_POINT('',(-7.40846892180784,1.16815591194296,2.7));
#458=CARTESIAN_POINT('',(-6.51094131226769,2.72271900565614,2.934558595416));
#459=CARTESIAN_POINT('',(-5.61341370272754,4.27728209936934,2.93455859541602));
#460=CARTESIAN_POINT('',(-4.71588609318739,5.83184519308253,2.70000000000005));
#461=CARTESIAN_POINT('',(-7.40846892180784,1.16815591194296,0.299999999999998));
#462=CARTESIAN_POINT('',(-6.51094131226769,2.72271900565614,0.0654414045840042));
#463=CARTESIAN_POINT('',(-5.61341370272754,4.27728209936933,0.0654414045839839));
#464=CARTESIAN_POINT('',(-4.71588609318739,5.83184519308252,0.299999999999951));
#465=CARTESIAN_POINT('',(-4.71588609318721,5.83184519308284,3.));
#466=CARTESIAN_POINT('',(-7.40846902827472,-1.16815523672762,3.));
#467=CARTESIAN_POINT('',(-7.40846902827471,-1.16815523672767,2.7));
#468=CARTESIAN_POINT('',(-7.40846902827471,-1.16815523672767,0.299999999999999));
#469=CARTESIAN_POINT('',(0.,0.,2.7));
#470=CARTESIAN_POINT('',(0.,0.,0.3));
#471=CARTESIAN_POINT('',(0.,0.,3.));
#472=CARTESIAN_POINT('',(-4.71588662470742,-5.83184476327222,3.));
#473=CARTESIAN_POINT('',(-4.71588662470742,-5.83184476327222,2.7));
#474=CARTESIAN_POINT('',(-4.71588662470742,-5.83184476327222,0.299999999999998));
#475=CARTESIAN_POINT('',(-4.71588662470741,-5.83184476327222,2.7));
#476=CARTESIAN_POINT('',(-5.61341409256319,-4.27728158775738,2.93455859541601));
#477=CARTESIAN_POINT('',(-6.51094156041896,-2.72271841224253,2.934558595416));
#478=CARTESIAN_POINT('',(-7.40846902827473,-1.16815523672768,2.69999999999999));
#479=CARTESIAN_POINT('',(-4.71588662470741,-5.83184476327222,0.299999999999997));
#480=CARTESIAN_POINT('',(-5.61341409256318,-4.27728158775738,0.0654414045839914));
#481=CARTESIAN_POINT('',(-6.51094156041896,-2.72271841224253,0.0654414045839952));
#482=CARTESIAN_POINT('',(-7.40846902827473,-1.16815523672768,0.300000000000006));
#483=CARTESIAN_POINT('',(-7.4084690282747,-1.16815523672774,3.));
#484=CARTESIAN_POINT('',(-2.69258240356651,-7.00000000000029,3.));
#485=CARTESIAN_POINT('',(-2.69258240356688,-7.00000000000014,2.7));
#486=CARTESIAN_POINT('',(-2.69258240356688,-7.00000000000014,0.300000000000001));
#487=CARTESIAN_POINT('',(0.,0.,2.7));
#488=CARTESIAN_POINT('',(0.,0.,0.3));
#489=CARTESIAN_POINT('',(0.,0.,3.));
#490=CARTESIAN_POINT('',(2.69258240356725,-7.,3.));
#491=CARTESIAN_POINT('',(2.69258240356725,-7.,2.7));
#492=CARTESIAN_POINT('',(2.69258240356725,-7.,0.3));
#493=CARTESIAN_POINT('',(2.69258240356725,-7.,2.7));
#494=CARTESIAN_POINT('',(0.897527467855876,-7.,2.93455859541598));
#495=CARTESIAN_POINT('',(-0.897527467855507,-7.,2.934558595416));
#496=CARTESIAN_POINT('',(-2.69258240356689,-7.,2.70000000000005));
#497=CARTESIAN_POINT('',(2.69258240356725,-7.,0.299999999999999));
#498=CARTESIAN_POINT('',(0.897527467855876,-7.,0.0654414045840202));
#499=CARTESIAN_POINT('',(-0.897527467855507,-7.,0.0654414045839997));
#500=CARTESIAN_POINT('',(-2.69258240356689,-7.,0.299999999999952));
#501=CARTESIAN_POINT('',(-2.69258240356725,-7.,3.));
#502=CARTESIAN_POINT('',(4.71588662470732,-5.83184476327231,3.));
#503=CARTESIAN_POINT('',(4.71588662470736,-5.83184476327227,2.7));
#504=CARTESIAN_POINT('',(4.71588662470736,-5.83184476327227,0.3));
#505=CARTESIAN_POINT('',(0.,0.,2.7));
#506=CARTESIAN_POINT('',(0.,0.,0.3));
#507=CARTESIAN_POINT('',(0.,0.,3.));
#508=CARTESIAN_POINT('',(7.4084690282747,-1.16815523672775,3.));
#509=CARTESIAN_POINT('',(7.4084690282747,-1.16815523672775,2.7));
#510=CARTESIAN_POINT('',(7.4084690282747,-1.16815523672775,0.299999999999998));
#511=CARTESIAN_POINT('',(7.4084690282747,-1.16815523672775,2.7));
#512=CARTESIAN_POINT('',(6.51094156041893,-2.72271841224259,2.93455859541601));
#513=CARTESIAN_POINT('',(5.61341409256315,-4.27728158775744,2.934558595416));
#514=CARTESIAN_POINT('',(4.71588662470738,-5.83184476327228,2.69999999999999));
#515=CARTESIAN_POINT('',(7.4084690282747,-1.16815523672775,0.299999999999997));
#516=CARTESIAN_POINT('',(6.51094156041893,-2.72271841224259,0.0654414045839921));
#517=CARTESIAN_POINT('',(5.61341409256315,-4.27728158775744,0.065441404583996));
#518=CARTESIAN_POINT('',(4.71588662470738,-5.83184476327228,0.300000000000006));
#519=CARTESIAN_POINT('',(4.71588662470741,-5.83184476327223,3.));
#520=CARTESIAN_POINT('',(7.40846902827458,1.16815523672856,3.));
#521=CARTESIAN_POINT('',(7.40846902827464,1.16815523672817,2.7));
#522=CARTESIAN_POINT('',(7.40846902827464,1.16815523672817,0.3));
#523=CARTESIAN_POINT('',(0.,0.,2.7));
#524=CARTESIAN_POINT('',(0.,0.,0.3));
#525=CARTESIAN_POINT('',(0.,0.,3.));
#526=CARTESIAN_POINT('',(4.71588662470741,5.83184476327226,2.69999999999999));
#527=CARTESIAN_POINT('',(5.61341409256311,4.27728158775754,2.93455859541598));
#528=CARTESIAN_POINT('',(6.51094156041882,2.72271841224282,2.934558595416));
#529=CARTESIAN_POINT('',(7.40846902827452,1.16815523672809,2.70000000000005));
#530=CARTESIAN_POINT('',(4.71588662470741,5.83184476327226,0.300000000000008));
#531=CARTESIAN_POINT('',(5.61341409256311,4.27728158775755,0.06544140458402));
#532=CARTESIAN_POINT('',(6.51094156041882,2.72271841224281,0.0654414045839957));
#533=CARTESIAN_POINT('',(7.40846902827452,1.16815523672809,0.299999999999952));
#534=CARTESIAN_POINT('',(7.4084690282747,1.16815523672778,3.));
#535=CARTESIAN_POINT('',(0.,0.,0.));
#536=CARTESIAN_POINT('',(5.575,0.,0.));
#537=CARTESIAN_POINT('',(0.,0.,0.));
#538=CARTESIAN_POINT('',(-6.67575677416361,0.,0.));
#539=CARTESIAN_POINT('',(0.,0.,0.));
#540=CARTESIAN_POINT('',(0.,0.,3.));
#541=CARTESIAN_POINT('',(5.575,0.,3.));
#542=CARTESIAN_POINT('',(0.,0.,3.));
#543=CARTESIAN_POINT('',(0.,0.,3.));
#544=CARTESIAN_POINT('',(-6.67575677416361,0.,3.));
#545=CARTESIAN_POINT('',(0.,0.,3.));
#546=CARTESIAN_POINT('',(0.,0.,0.));
#547=CARTESIAN_POINT('',(0.,0.,3.));
#548=MECHANICAL_DESIGN_GEOMETRIC_PRESENTATION_REPRESENTATION('',(#24),#549);
#549=(
GEOMETRIC_REPRESENTATION_CONTEXT(3)
GLOBAL_UNCERTAINTY_ASSIGNED_CONTEXT((#550))
GLOBAL_UNIT_ASSIGNED_CONTEXT((#556,#552,#551))
REPRESENTATION_CONTEXT('Mutter_M12x1_WFSF','TOP_LEVEL_ASSEMBLY_PART')
);
#550=UNCERTAINTY_MEASURE_WITH_UNIT(LENGTH_MEASURE(0.0508),#556,
'DISTANCE_ACCURACY_VALUE','Maximum Tolerance applied to model');
#551=(
NAMED_UNIT(*)
SI_UNIT($,.STERADIAN.)
SOLID_ANGLE_UNIT()
);
#552=(
CONVERSION_BASED_UNIT('DEGREE',#554)
NAMED_UNIT(#553)
PLANE_ANGLE_UNIT()
);
#553=DIMENSIONAL_EXPONENTS(0.,0.,0.,0.,0.,0.,0.);
#554=PLANE_ANGLE_MEASURE_WITH_UNIT(PLANE_ANGLE_MEASURE(0.0174532925),#555);
#555=(
NAMED_UNIT(*)
PLANE_ANGLE_UNIT()
SI_UNIT($,.RADIAN.)
);
#556=(
LENGTH_UNIT()
NAMED_UNIT(*)
SI_UNIT(.MILLI.,.METRE.)
);
ENDSEC;
END-ISO-10303-21;
